On the Clock

	
(* means bend note)

intro chords
A# Gm F D#
A# Gm C D#

d#|----------------------------------------------------------------
a#|----------------------------------------------------------------
f#|-10-8-7---------------------------------------------------------
C#|--------10-8-7--------------------------------------------------
G#|---------------10-8-6-------------------------------------------
D#|----------------------10-8-5-6-----------------------------------

verse chords
A# Gm A# F   A# Gm D#-D-D# F 

chorus chords

D# D C A# A A# Gm

solo

d#|----------------------------------------3--6-5-3----------------
a#|-----------------------------------3-4-6--------6-4-3-----------
f#|---3--5-3-3-----2-3---5-3-2---2-3-5------------------5-3--------
C#|-5---5---5--5-3-----3----3--------------------------------------
G#|----------------------------------------------------------------
D#|----------------------------------------------------------------

d#|----------------------10-6-8-6-10-6-8-6-10-6-8-6-11-------------
a#|----6-8-6--10-6-8-6-------6---6----6---6------------------------
f#|--7------7-----7---7---------------------------------------------
C#|----------------------------------------------------------------
G#|----------------------------------------------------------------
D#|----------------------------------------------------------------

d#|-----------------11--15-13-11-13-11-10--------------------------
a#|--------11-13-15-----------------------13-11-10-----------------
f#|10-12-14---------------------------------------12-10-8----------
C#|------------------------------------------------------12-10-8--8
G#|-------------------------------------------------------------12-
D#|----------------------------------------------------------------

d#|-11-10-8-10-11--13-8-6-8-10---11-10--13-10--11-10---------------
a#|-11-10-8-10-11--13-8-6-8-10--------11-----11-----11-13*-11-10-11
f#|----------------------------------------------------------------
C#|----------------------------------------------------------------
G#|----------------------------------------------------------------
D#|----------------------------------------------------------------

d#|----------10----13-11-10----------------------------------------
a#|-10----11---------------13-11-10--------------------------------
f#|----12--------------------------10-8-7--------------------------
C#|--------------------------------------10-8-7--------------------
G#|--------------------------------------------10-8-6--------------
D#|--------------------------------------------------10-8-5-6------